  0
SECTION
  2
HEADER
  9
$ACADVER
  1
AC1015
  9
$ACADMAINTVER
 70
     6
  9
$DWGCODEPAGE
  3
ANSI_1254
  9
$INSBASE
 10
0.0
 20
0.0
 30
0.0
  9
$EXTMIN
 10
0.0
 20
0.0
 30
0.0
  9
$EXTMAX
 10
279.4
 20
215.9
 30
0.0
  9
$LIMMIN
 10
0.0
 20
0.0
  9
$LIMMAX
 10
279.4
 20
215.9
  9
$ORTHOMODE
 70
     0
  9
$REGENMODE
 70
     1
  9
$FILLMODE
 70
     1
  9
$QTEXTMODE
 70
     0
  9
$MIRRTEXT
 70
     1
  9
$LTSCALE
 40
1.0
  9
$ATTMODE
 70
     1
  9
$TEXTSIZE
 40
3.5
  9
$TRACEWID
 40
1.0
  9
$TEXTSTYLE
  7
Standard
  9
$CLAYER
  8
0
  9
$CELTYPE
  6
ByLayer
  9
$CECOLOR
 62
   256
  9
$CELTSCALE
 40
1.0
  9
$DISPSILH
 70
     0
  9
$DIMSCALE
 40
1.0
  9
$DIMASZ
 40
3.5
  9
$DIMEXO
 40
1.0
  9
$DIMDLI
 40
3.75
  9
$DIMRND
 40
0.0
  9
$DIMDLE
 40
0.0
  9
$DIMEXE
 40
1.0
  9
$DIMTP
 40
0.0
  9
$DIMTM
 40
0.0
  9
$DIMTXT
 40
3.5
  9
$DIMCEN
 40
2.5
  9
$DIMTSZ
 40
0.0
  9
$DIMTOL
 70
     0
  9
$DIMLIM
 70
     0
  9
$DIMTIH
 70
     1
  9
$DIMTOH
 70
     1
  9
$DIMSE1
 70
     0
  9
$DIMSE2
 70
     0
  9
$DIMTAD
 70
     1
  9
$DIMZIN
 70
     0
  9
$DIMBLK
  1

  9
$DIMASO
 70
     1
  9
$DIMSHO
 70
     1
  9
$DIMPOST
  1

  9
$DIMAPOST
  1

  9
$DIMALT
 70
     0
  9
$DIMALTD
 70
     3
  9
$DIMALTF
 40
0.0393700787
  9
$DIMLFAC
 40
1.0
  9
$DIMTOFL
 70
     1
  9
$DIMTVP
 40
0.0
  9
$DIMTIX
 70
     0
  9
$DIMSOXD
 70
     0
  9
$DIMSAH
 70
     0
  9
$DIMBLK1
  1

  9
$DIMBLK2
  1

  9
$DIMSTYLE
  2
ISO-25
  9
$DIMCLRD
 70
     0
  9
$DIMCLRE
 70
     0
  9
$DIMCLRT
 70
     0
  9
$DIMTFAC
 40
1.0
  9
$DIMGAP
 40
1.524
  9
$DIMJUST
 70
     0
  9
$DIMSD1
 70
     0
  9
$DIMSD2
 70
     0
  9
$DIMTOLJ
 70
     0
  9
$DIMTZIN
 70
     0
  9
$DIMALTZ
 70
     0
  9
$DIMALTTZ
 70
     0
  9
$DIMUPT
 70
     0
  9
$DIMDEC
 70
     2
  9
$DIMTDEC
 70
     2
  9
$DIMALTU
 70
     2
  9
$DIMALTTD
 70
     3
  9
$DIMTXSTY
  7
Standard
  9
$DIMAUNIT
 70
     0
  9
$DIMADEC
 70
     2
  9
$DIMALTRND
 40
0.0
  9
$DIMAZIN
 70
     0
  9
$DIMDSEP
 70
    44
  9
$DIMATFIT
 70
     3
  9
$DIMFRAC
 70
     0
  9
$DIMLDRBLK
  1

  9
$DIMLUNIT
 70
     2
  9
$DIMLWD
 70
    -2
  9
$DIMLWE
 70
    -2
  9
$DIMTMOVE
 70
     0
  9
$LUNITS
 70
     2
  9
$LUPREC
 70
     2
  9
$SKETCHINC
 40
1.0
  9
$FILLETRAD
 40
10.0
  9
$AUNITS
 70
     0
  9
$AUPREC
 70
     2
  9
$MENU
  1
.
  9
$ELEVATION
 40
0.0
  9
$PELEVATION
 40
0.0
  9
$THICKNESS
 40
0.0
  9
$LIMCHECK
 70
     0
  9
$CHAMFERA
 40
0.0
  9
$CHAMFERB
 40
0.0
  9
$CHAMFERC
 40
0.0
  9
$CHAMFERD
 40
0.0
  9
$SKPOLY
 70
     0
  9
$TDCREATE
 40
2458985.70569272
  9
$TDUCREATE
 40
2458985.58069272
  9
$TDUPDATE
 40
2458985.705693079
  9
$TDUUPDATE
 40
2458985.580693079
  9
$TDINDWG
 40
0.0000000116
  9
$TDUSRTIMER
 40
0.0000000116
  9
$USRTIMER
 70
     1
  9
$ANGBASE
 50
0.0
  9
$ANGDIR
 70
     0
  9
$PDMODE
 70
     0
  9
$PDSIZE
 40
-1.0
  9
$PLINEWID
 40
0.0
  9
$SPLFRAME
 70
     0
  9
$SPLINETYPE
 70
     6
  9
$SPLINESEGS
 70
     8
  9
$HANDSEED
  5
F1
  9
$SURFTAB1
 70
     6
  9
$SURFTAB2
 70
     6
  9
$SURFTYPE
 70
     6
  9
$SURFU
 70
     6
  9
$SURFV
 70
     6
  9
$UCSBASE
  2

  9
$UCSNAME
  2

  9
$UCSORG
 10
0.0
 20
0.0
 30
0.0
  9
$UCSXDIR
 10
1.0
 20
0.0
 30
0.0
  9
$UCSYDIR
 10
0.0
 20
1.0
 30
0.0
  9
$UCSORTHOREF
  2

  9
$UCSORTHOVIEW
 70
     0
  9
$UCSORGTOP
 10
0.0
 20
0.0
 30
0.0
  9
$UCSORGBOTTOM
 10
0.0
 20
0.0
 30
0.0
  9
$UCSORGLEFT
 10
0.0
 20
0.0
 30
0.0
  9
$UCSORGRIGHT
 10
0.0
 20
0.0
 30
0.0
  9
$UCSORGFRONT
 10
0.0
 20
0.0
 30
0.0
  9
$UCSORGBACK
 10
0.0
 20
0.0
 30
0.0
  9
$PUCSBASE
  2

  9
$PUCSNAME
  2

  9
$PUCSORG
 10
0.0
 20
0.0
 30
0.0
  9
$PUCSXDIR
 10
1.0
 20
0.0
 30
0.0
  9
$PUCSYDIR
 10
0.0
 20
1.0
 30
0.0
  9
$PUCSORTHOREF
  2

  9
$PUCSORTHOVIEW
 70
     0
  9
$PUCSORGTOP
 10
0.0
 20
0.0
 30
0.0
  9
$PUCSORGBOTTOM
 10
0.0
 20
0.0
 30
0.0
  9
$PUCSORGLEFT
 10
0.0
 20
0.0
 30
0.0
  9
$PUCSORGRIGHT
 10
0.0
 20
0.0
 30
0.0
  9
$PUCSORGFRONT
 10
0.0
 20
0.0
 30
0.0
  9
$PUCSORGBACK
 10
0.0
 20
0.0
 30
0.0
  9
$USERI1
 70
     0
  9
$USERI2
 70
     0
  9
$USERI3
 70
     0
  9
$USERI4
 70
     0
  9
$USERI5
 70
     0
  9
$USERR1
 40
0.0
  9
$USERR2
 40
0.0
  9
$USERR3
 40
0.0
  9
$USERR4
 40
0.0
  9
$USERR5
 40
0.0
  9
$WORLDVIEW
 70
     1
  9
$SHADEDGE
 70
     3
  9
$SHADEDIF
 70
    70
  9
$TILEMODE
 70
     1
  9
$MAXACTVP
 70
    64
  9
$PINSBASE
 10
0.0
 20
0.0
 30
0.0
  9
$PLIMCHECK
 70
     0
  9
$PEXTMIN
 10
1.0000000000E+20
 20
1.0000000000E+20
 30
1.0000000000E+20
  9
$PEXTMAX
 10
-1.0000000000E+20
 20
-1.0000000000E+20
 30
-1.0000000000E+20
  9
$PLIMMIN
 10
0.0
 20
0.0
  9
$PLIMMAX
 10
420.0
 20
297.0
  9
$UNITMODE
 70
     0
  9
$VISRETAIN
 70
     1
  9
$PLINEGEN
 70
     0
  9
$PSLTSCALE
 70
     1
  9
$TREEDEPTH
 70
  3020
  9
$CMLSTYLE
  2
Standard
  9
$CMLJUST
 70
     0
  9
$CMLSCALE
 40
20.0
  9
$PROXYGRAPHICS
 70
     1
  9
$MEASUREMENT
 70
     1
  9
$CELWEIGHT
370
    -1
  9
$ENDCAPS
280
     0
  9
$JOINSTYLE
280
     0
  9
$LWDISPLAY
290
     1
  9
$INSUNITS
 70
     4
  9
$HYPERLINKBASE
  1

  9
$STYLESHEET
  1

  9
$XEDIT
290
     1
  9
$CEPSNTYPE
380
     0
  9
$PSTYLEMODE
290
     1
  9
$FINGERPRINTGUID
  2
{6e5e3ff1-a054-40d6-85fd-9ef048d3d60f}
  9
$VERSIONGUID
  2
{FAEB1C32-E019-11D5-929B-00C0DF256EC4}
  9
$EXTNAMES
290
     1
  9
$PSVPSCALE
 40
0.0
  9
$OLESTARTUP
290
     0
  0
ENDSEC
  0
SECTION
  2
CLASSES
  0
CLASS
  1
ACDBDICTIONARYWDFLT
  2
AcDbDictionaryWithDefault
  3
ObjectDBX Classes
 90
        0
280
     0
281
     0
  0
CLASS
  1
VISUALSTYLE
  2
AcDbVisualStyle
  3
ObjectDBX Classes
 90
     4095
280
     0
281
     0
  0
CLASS
  1
MATERIAL
  2
AcDbMaterial
  3
ObjectDBX Classes
 90
     1153
280
     0
281
     0
  0
CLASS
  1
SCALE
  2
AcDbScale
  3
ObjectDBX Classes
 90
     1153
280
     0
281
     0
  0
CLASS
  1
TABLESTYLE
  2
AcDbTableStyle
  3
ObjectDBX Classes
 90
     4095
280
     0
281
     0
  0
CLASS
  1
MLEADERSTYLE
  2
AcDbMLeaderStyle
  3
ACDB_MLEADERSTYLE_CLASS
 90
     4095
280
     0
281
     0
  0
CLASS
  1
SUN
  2
AcDbSun
  3
SCENEOE
 90
     1153
280
     0
281
     0
  0
CLASS
  1
ACDBPLACEHOLDER
  2
AcDbPlaceHolder
  3
ObjectDBX Classes
 90
        0
280
     0
281
     0
  0
CLASS
  1
LAYOUT
  2
AcDbLayout
  3
ObjectDBX Classes
 90
        0
280
     0
281
     0
  0
ENDSEC
  0
SECTION
  2
TABLES
  0
TABLE
  2
VPORT
  5
8
330
0
100
AcDbSymbolTable
 70
     1
  0
VPORT
  5
29
330
8
100
AcDbSymbolTableRecord
100
AcDbViewportTableRecord
  2
*Active
 70
     0
 10
0.0
 20
0.0
 11
1.0
 21
1.0
 12
139.7
 22
107.95
 13
0.0
 23
0.0
 14
10.0
 24
10.0
 15
10.0
 25
10.0
 16
0.0
 26
0.0
 36
1.0
 17
0.0
 27
0.0
 37
0.0
 40
215.9
 41
1.2941176471
 42
50.0
 43
0.0
 44
0.0
 50
0.0
 51
0.0
 71
     0
 72
  2000
 73
     1
 74
     3
 75
     0
 76
     0
 77
     0
 78
     0
281
     0
 65
     1
110
0.0
120
0.0
130
0.0
111
1.0
121
0.0
131
0.0
112
0.0
122
1.0
132
0.0
 79
     0
146
0.0
  0
ENDTAB
  0
TABLE
  2
LTYPE
  5
5
330
0
100
AcDbSymbolTable
 70
     6
  0
LTYPE
  5
14
330
5
100
AcDbSymbolTableRecord
100
AcDbLinetypeTableRecord
  2
ByBlock
 70
     0
  3

 72
    65
 73
     0
 40
0.0
  0
LTYPE
  5
15
330
5
100
AcDbSymbolTableRecord
100
AcDbLinetypeTableRecord
  2
ByLayer
 70
     0
  3

 72
    65
 73
     0
 40
0.0
  0
LTYPE
  5
16
330
5
100
AcDbSymbolTableRecord
100
AcDbLinetypeTableRecord
  2
Continuous
 70
     0
  3
Solid line
 72
    65
 73
     0
 40
0.0
  0
LTYPE
  5
6E
330
5
100
AcDbSymbolTableRecord
100
AcDbLinetypeTableRecord
  2
HIDDEN
 70
     0
  3
Hidden __ __ __ __ __ __ __ __ __ __ __ __ __ __
 72
    65
 73
     2
 40
1.905
 49
1.27
 74
     0
 49
-0.635
 74
     0
  0
LTYPE
  5
6F
330
5
100
AcDbSymbolTableRecord
100
AcDbLinetypeTableRecord
  2
PHANTOM
 70
     0
  3
Phantom ______  __  __  ______  __  __  ______
 72
    65
 73
     6
 40
12.7
 49
6.35
 74
     0
 49
-1.27
 74
     0
 49
1.27
 74
     0
 49
-1.27
 74
     0
 49
1.27
 74
     0
 49
-1.27
 74
     0
  0
LTYPE
  5
70
330
5
100
AcDbSymbolTableRecord
100
AcDbLinetypeTableRecord
  2
CENTER
 70
     0
  3
Center ____ _ ____ _ ____ _ ____ _ ____ _ ____
 72
    65
 73
     4
 40
10.16
 49
6.35
 74
     0
 49
-1.27
 74
     0
 49
1.27
 74
     0
 49
-1.27
 74
     0
  0
LTYPE
  5
71
330
5
100
AcDbSymbolTableRecord
100
AcDbLinetypeTableRecord
  2
CENTERX2
 70
     0
  3
Center (2x) ________  __  ________  __  _____
 72
    65
 73
     4
 40
20.32
 49
12.7
 74
     0
 49
-2.54
 74
     0
 49
2.54
 74
     0
 49
-2.54
 74
     0
  0
LTYPE
  5
72
330
5
100
AcDbSymbolTableRecord
100
AcDbLinetypeTableRecord
  2
DOT2
 70
     0
  3
Dot (.5x) ........................................
 72
    65
 73
     2
 40
0.635
 49
0.0
 74
     0
 49
-0.635
 74
     0
  0
ENDTAB
  0
TABLE
  2
LAYER
  5
2
330
0
100
AcDbSymbolTable
 70
    17
  0
LAYER
  5
10
330
2
100
AcDbSymbolTableRecord
100
AcDbLayerTableRecord
  2
0
 70
     0
 62
     7
  6
Continuous
370
    -3
390
F
  0
LAYER
  5
73
330
2
100
AcDbSymbolTableRecord
100
AcDbLayerTableRecord
  2
FORMAT
 70
     0
 62
     7
  6
Continuous
370
    -3
390
F
  0
LAYER
  5
74
330
2
100
AcDbSymbolTableRecord
100
AcDbLayerTableRecord
  2
YARDIMCI_GEOMETRI
 70
     0
 62
    -6
  6
Continuous
290
     0
370
    -3
390
F
  0
LAYER
  5
75
330
2
100
AcDbSymbolTableRecord
100
AcDbLayerTableRecord
  2
SAYFA_CERCEVESI
 70
     0
 62
     7
  6
Continuous
370
    25
390
F
  0
LAYER
  5
76
330
2
100
AcDbSymbolTableRecord
100
AcDbLayerTableRecord
  2
ANTET
 70
     0
 62
     7
  6
Continuous
370
    -3
390
F
  0
LAYER
  5
77
330
2
100
AcDbSymbolTableRecord
100
AcDbLayerTableRecord
  2
OLCU
 70
     0
 62
   150
  6
Continuous
370
    -3
390
F
  0
LAYER
  5
78
330
2
100
AcDbSymbolTableRecord
100
AcDbLayerTableRecord
  2
METIN
 70
     0
 62
    96
  6
Continuous
370
    -3
390
F
  0
LAYER
  5
79
330
2
100
AcDbSymbolTableRecord
100
AcDbLayerTableRecord
  2
BALON
 70
     0
 62
     5
  6
Continuous
370
    -3
390
F
  0
LAYER
  5
7A
330
2
100
AcDbSymbolTableRecord
100
AcDbLayerTableRecord
  2
VURGU
 70
     0
 62
     7
  6
Continuous
370
    -3
390
F
  0
LAYER
  5
7B
330
2
100
AcDbSymbolTableRecord
100
AcDbLayerTableRecord
  2
SILIK
 70
     0
 62
     7
  6
Continuous
370
    -3
390
F
  0
LAYER
  5
7C
330
2
100
AcDbSymbolTableRecord
100
AcDbLayerTableRecord
  2
MODEL
 70
     0
 62
     7
  6
Continuous
370
    -3
390
F
  0
LAYER
  5
7D
330
2
100
AcDbSymbolTableRecord
100
AcDbLayerTableRecord
  2
DETAYLANDıRMA
 70
     0
 62
   190
  6
Continuous
370
    -3
390
F
  0
LAYER
  5
7E
330
2
100
AcDbSymbolTableRecord
100
AcDbLayerTableRecord
  2
TOLERANS
 70
     0
 62
   230
  6
Continuous
370
    -3
390
F
  0
LAYER
  5
7F
330
2
100
AcDbSymbolTableRecord
100
AcDbLayerTableRecord
  2
MERKEZ_CIZGILERI
 70
     0
 62
    30
  6
Continuous
370
    -3
390
F
  0
LAYER
  5
80
330
2
100
AcDbSymbolTableRecord
100
AcDbLayerTableRecord
  2
KESIT-DETAY_CIZGILERI
 70
     0
 62
     7
  6
Continuous
370
    -3
390
F
  0
LAYER
  5
81
330
2
100
AcDbSymbolTableRecord
100
AcDbLayerTableRecord
  2
\U+041E\U+0421\U+0415\U+0412\U+042B\U+0415
 70
     0
 62
     7
  6
Continuous
370
    -3
390
F
  0
LAYER
  5
82
330
2
100
AcDbSymbolTableRecord
100
AcDbLayerTableRecord
  2
\U+0412\U+041E\U+0414\U+042F\U+041D\U+042B\U+0415_\U+0417\U+041D\U+0410\U+041A\U+0418
 70
     0
 62
    11
  6
Continuous
370
    -3
390
F
  0
ENDTAB
  0
TABLE
  2
STYLE
  5
3
330
0
100
AcDbSymbolTable
 70
     1
  0
STYLE
  5
11
330
3
100
AcDbSymbolTableRecord
100
AcDbTextStyleTableRecord
  2
Standard
 70
     0
 40
0.0
 41
1.0
 50
0.0
 71
     0
 42
3.5
  3
txt
  4

  0
ENDTAB
  0
TABLE
  2
VIEW
  5
6
330
0
100
AcDbSymbolTable
 70
     0
  0
ENDTAB
  0
TABLE
  2
UCS
  5
7
330
0
100
AcDbSymbolTable
 70
     0
  0
ENDTAB
  0
TABLE
  2
APPID
  5
9
330
0
100
AcDbSymbolTable
 70
     1
  0
APPID
  5
12
330
9
100
AcDbSymbolTableRecord
100
AcDbRegAppTableRecord
  2
ACAD
 70
     0
  0
ENDTAB
  0
TABLE
  2
DIMSTYLE
  5
A
330
0
100
AcDbSymbolTable
 70
     1
100
AcDbDimStyleTable
  0
DIMSTYLE
105
27
330
A
100
AcDbSymbolTableRecord
100
AcDbDimStyleTableRecord
  2
ISO-25
 70
     0
 41
2.5
 42
0.625
 43
3.75
 44
1.25
 73
     0
 74
     0
 77
     1
 78
     8
140
2.5
141
2.5
143
0.0393700787
147
0.625
171
     3
172
     1
178
     0
271
     2
272
     2
274
     3
278
    44
283
     0
284
     8
340
11
  0
ENDTAB
  0
TABLE
  2
BLOCK_RECORD
  5
1
330
0
100
AcDbSymbolTable
 70
     2
  0
BLOCK_RECORD
  5
1F
330
1
100
AcDbSymbolTableRecord
100
AcDbBlockTableRecord
  2
*Model_Space
340
22
  0
BLOCK_RECORD
  5
1B
330
1
100
AcDbSymbolTableRecord
100
AcDbBlockTableRecord
  2
*Paper_Space
340
1E
  0
BLOCK_RECORD
  5
23
330
1
100
AcDbSymbolTableRecord
100
AcDbBlockTableRecord
  2
*Paper_Space0
340
26
  0
BLOCK_RECORD
  5
88
330
1
100
AcDbSymbolTableRecord
100
AcDbBlockTableRecord
  2
SW_CENTERMARKSYMBOL_0
340
0
102
{BLKREFS
331
93
102
}
  0
ENDTAB
  0
ENDSEC
  0
SECTION
  2
BLOCKS
  0
BLOCK
  5
20
330
1F
100
AcDbEntity
  8
0
100
AcDbBlockBegin
  2
*Model_Space
 70
     0
 10
0.0
 20
0.0
 30
0.0
  3
*Model_Space
  1

  0
ENDBLK
  5
21
330
1F
100
AcDbEntity
  8
0
100
AcDbBlockEnd
  0
BLOCK
  5
1C
330
1B
100
AcDbEntity
 67
     1
  8
0
100
AcDbBlockBegin
  2
*Paper_Space
 70
     0
 10
0.0
 20
0.0
 30
0.0
  3
*Paper_Space
  1

  0
ENDBLK
  5
1D
330
1B
100
AcDbEntity
 67
     1
  8
0
100
AcDbBlockEnd
  0
BLOCK
  5
24
330
23
100
AcDbEntity
  8
0
100
AcDbBlockBegin
  2
*Paper_Space0
 70
     0
 10
0.0
 20
0.0
 30
0.0
  3
*Paper_Space0
  1

  0
ENDBLK
  5
25
330
23
100
AcDbEntity
  8
0
100
AcDbBlockEnd
  0
BLOCK
  5
89
330
88
100
AcDbEntity
  8
0
100
AcDbBlockBegin
  2
SW_CENTERMARKSYMBOL_0
 70
     0
 10
0.0
 20
0.0
 30
0.0
  3
SW_CENTERMARKSYMBOL_0
  1

  0
LINE
  5
8B
330
88
100
AcDbEntity
  8
FORMAT
 62
     0
100
AcDbLine
 10
0.0
 20
0.0
 30
0.0
 11
0.0
 21
2.5
 31
0.0
  0
LINE
  5
8C
330
88
100
AcDbEntity
  8
FORMAT
 62
     0
100
AcDbLine
 10
0.0
 20
0.0
 30
0.0
 11
-2.5
 21
0.0
 31
0.0
  0
LINE
  5
8D
330
88
100
AcDbEntity
  8
FORMAT
 62
     0
100
AcDbLine
 10
0.0
 20
0.0
 30
0.0
 11
0.0
 21
-2.5
 31
0.0
  0
LINE
  5
8E
330
88
100
AcDbEntity
  8
FORMAT
 62
     0
100
AcDbLine
 10
0.0
 20
0.0
 30
0.0
 11
2.5
 21
0.0
 31
0.0
  0
LINE
  5
8F
330
88
100
AcDbEntity
  8
FORMAT
 62
     0
100
AcDbLine
 10
0.0
 20
5.0
 30
0.0
 11
0.0
 21
82.5
 31
0.0
  0
LINE
  5
90
330
88
100
AcDbEntity
  8
FORMAT
 62
     0
100
AcDbLine
 10
-5.0
 20
0.0
 30
0.0
 11
-82.5
 21
0.0
 31
0.0
  0
LINE
  5
91
330
88
100
AcDbEntity
  8
FORMAT
 62
     0
100
AcDbLine
 10
0.0
 20
-5.0
 30
0.0
 11
0.0
 21
-82.5
 31
0.0
  0
LINE
  5
92
330
88
100
AcDbEntity
  8
FORMAT
 62
     0
100
AcDbLine
 10
5.0
 20
0.0
 30
0.0
 11
82.5
 21
0.0
 31
0.0
  0
ENDBLK
  5
8A
330
88
100
AcDbEntity
  8
0
100
AcDbBlockEnd
  0
ENDSEC
  0
SECTION
  2
ENTITIES
  0
CIRCLE
  5
83
330
1F
100
AcDbEntity
  8
0
  6
Continuous
 62
     7
370
    25
100
AcDbCircle
 10
136.0804557792
 20
118.8813202377
 30
0.0
 40
80.0
  0
CIRCLE
  5
84
330
1F
100
AcDbEntity
  8
0
  6
Continuous
 62
     7
370
    25
100
AcDbCircle
 10
136.0804557792
 20
118.8813202377
 30
0.0
 40
70.50000000000001
  0
CIRCLE
  5
85
330
1F
100
AcDbEntity
  8
0
  6
Continuous
 62
     7
370
    25
100
AcDbCircle
 10
136.0804557792
 20
118.8813202377
 30
0.0
 40
70.20870955797417
  0
CIRCLE
  5
86
330
1F
100
AcDbEntity
  8
0
  6
Continuous
 62
     7
370
    25
100
AcDbCircle
 10
136.0804557792
 20
118.8813202377
 30
0.0
 40
48.69129044202583
  0
CIRCLE
  5
87
330
1F
100
AcDbEntity
  8
0
  6
Continuous
 62
     7
370
    25
100
AcDbCircle
 10
136.0804557792
 20
118.8813202377
 30
0.0
 40
48.40000000000002
  0
INSERT
  5
93
330
1F
100
AcDbEntity
  8
FORMAT
 62
     7
100
AcDbBlockReference
  2
SW_CENTERMARKSYMBOL_0
 10
136.0804557792
 20
118.8813202377
 30
0.0
  0
LINE
  5
94
330
1F
100
AcDbEntity
  8
0
  6
Continuous
 62
     7
370
    25
100
AcDbLine
 10
-163.0274644576
 20
198.8813184496
 30
0.0
 11
-260.6810396991
 21
198.8813184496
 31
0.0
  0
LINE
  5
95
330
1F
100
AcDbEntity
  8
0
  6
Continuous
 62
     7
370
    25
100
AcDbLine
 10
-260.6810396991
 20
38.8813220259
 30
0.0
 11
-163.0274644576
 21
38.8813220259
 31
0.0
  0
ARC
  5
96
330
1F
100
AcDbEntity
  8
0
  6
Continuous
 62
     7
370
    25
100
AcDbCircle
 10
-163.027466068
 20
196.8813202377
 30
0.0
 40
2.0
100
AcDbArc
 50
70.3461759419
 51
90.0
  0
ARC
  5
97
330
1F
100
AcDbEntity
  8
0
  6
Continuous
 62
     7
370
    25
100
AcDbCircle
 10
-163.027466068
 20
40.8813202377
 30
0.0
 40
1.999999999999986
100
AcDbArc
 50
270.0
 51
289.6538240581
  0
LINE
  5
98
330
1F
100
AcDbEntity
  8
0
  6
Continuous
 62
     7
370
    25
100
AcDbLine
 10
-162.3547925137
 20
38.9978342052
 30
0.0
 11
-93.007284262
 21
63.7648046311
 31
0.0
  0
LINE
  5
99
330
1F
100
AcDbEntity
  8
0
  6
Continuous
 62
     7
370
    25
100
AcDbLine
 10
-93.007284262
 20
173.9978358444
 30
0.0
 11
-162.3547925137
 21
198.7648062702
 31
0.0
  0
ARC
  5
9A
330
1F
100
AcDbEntity
  8
0
  6
Continuous
 62
     7
370
    25
100
AcDbCircle
 10
-92.3346110701
 20
175.8813202377
 30
0.0
 40
2.000000000000028
100
AcDbArc
 50
250.3461759419
 51
270.0
  0
ARC
  5
9B
330
1F
100
AcDbEntity
  8
0
  6
Continuous
 62
     7
370
    25
100
AcDbCircle
 10
-92.3346110701
 20
61.8813202377
 30
0.0
 40
2.000000000000015
100
AcDbArc
 50
90.0
 51
109.6538240581
  0
LINE
  5
9C
330
1F
100
AcDbEntity
  8
0
  6
Continuous
 62
     7
370
    25
100
AcDbLine
 10
-10.6810396991
 20
173.8813199397
 30
0.0
 11
-92.3346123181
 21
173.8813199397
 31
0.0
  0
LINE
  5
9D
330
1F
100
AcDbEntity
  8
0
  6
Continuous
 62
     7
370
    25
100
AcDbLine
 10
-92.3346123181
 20
63.8813205357
 30
0.0
 11
-10.6810396991
 21
63.8813205357
 31
0.0
  0
LINE
  5
9E
330
1F
100
AcDbEntity
  8
0
  6
Continuous
 62
     7
370
    25
100
AcDbLine
 10
-260.6810396991
 20
198.8813184496
 30
0.0
 11
-260.6810396991
 21
38.8813220259
 31
0.0
  0
LINE
  5
9F
330
1F
100
AcDbEntity
  8
0
  6
Continuous
 62
     7
370
    25
100
AcDbLine
 10
-10.6810396991
 20
173.8813199397
 30
0.0
 11
-10.6810396991
 21
63.8813205357
 31
0.0
  0
LINE
  5
A0
330
1F
100
AcDbEntity
  8
0
  6
Continuous
 62
     1
370
    25
100
AcDbLine
 10
-163.0274644576
 20
198.8813184496
 30
0.0
 11
-163.0274644576
 21
38.8813220259
 31
0.0
  0
LINE
  5
A1
330
1F
100
AcDbEntity
  8
0
  6
Continuous
 62
     1
370
    25
100
AcDbLine
 10
-162.3547925137
 20
198.7648062702
 30
0.0
 11
-162.3547925137
 21
38.9978342052
 31
0.0
  0
LINE
  5
A2
330
1F
100
AcDbEntity
  8
0
  6
Continuous
 62
     1
370
    25
100
AcDbLine
 10
-93.007284262
 20
173.9978358444
 30
0.0
 11
-93.007284262
 21
63.7648046311
 31
0.0
  0
LINE
  5
A3
330
1F
100
AcDbEntity
  8
0
  6
Continuous
 62
     1
370
    25
100
AcDbLine
 10
-92.3346123181
 20
173.8813199397
 30
0.0
 11
-92.3346123181
 21
63.8813205357
 31
0.0
  0
LINE
  5
A4
330
1F
100
AcDbEntity
  8
0
  6
Continuous
 62
     7
370
    25
100
AcDbLine
 10
216.080453991
 20
388.490879253
 30
0.0
 11
216.080453991
 21
486.1444544945
 31
0.0
  0
LINE
  5
A5
330
1F
100
AcDbEntity
  8
0
  6
Continuous
 62
     7
370
    25
100
AcDbLine
 10
56.0804575673
 20
486.1444544945
 30
0.0
 11
56.0804575673
 21
388.490879253
 31
0.0
  0
ARC
  5
A6
330
1F
100
AcDbEntity
  8
0
  6
Continuous
 62
     7
370
    25
100
AcDbCircle
 10
214.0804557792
 20
388.4908808634
 30
0.0
 40
2.000000000000031
100
AcDbArc
 50
340.3461759419
 51
0.0
  0
ARC
  5
A7
330
1F
100
AcDbEntity
  8
0
  6
Continuous
 62
     7
370
    25
100
AcDbCircle
 10
58.0804557792
 20
388.4908808634
 30
0.0
 40
1.999999999999997
100
AcDbArc
 50
180.0
 51
199.6538240581
  0
LINE
  5
A8
330
1F
100
AcDbEntity
  8
0
  6
Continuous
 62
     7
370
    25
100
AcDbLine
 10
56.1969697467
 20
387.8182073091
 30
0.0
 11
80.9639401725
 21
318.4706990574
 31
0.0
  0
LINE
  5
A9
330
1F
100
AcDbEntity
  8
0
  6
Continuous
 62
     7
370
    25
100
AcDbLine
 10
191.1969713858
 20
318.4706990574
 30
0.0
 11
215.9639418117
 21
387.8182073091
 31
0.0
  0
ARC
  5
AA
330
1F
100
AcDbEntity
  8
0
  6
Continuous
 62
     7
370
    25
100
AcDbCircle
 10
193.0804557792
 20
317.7980258655
 30
0.0
 40
2.000000000000039
100
AcDbArc
 50
160.3461759419
 51
180.0
  0
ARC
  5
AB
330
1F
100
AcDbEntity
  8
0
  6
Continuous
 62
     7
370
    25
100
AcDbCircle
 10
79.0804557792
 20
317.7980258655
 30
0.0
 40
2.000000000000014
100
AcDbArc
 50
0.0
 51
19.6538240581
  0
LINE
  5
AC
330
1F
100
AcDbEntity
  8
0
  6
Continuous
 62
     7
370
    25
100
AcDbLine
 10
191.0804554812
 20
236.1444544945
 30
0.0
 11
191.0804554812
 21
317.7980271135
 31
0.0
  0
LINE
  5
AD
330
1F
100
AcDbEntity
  8
0
  6
Continuous
 62
     7
370
    25
100
AcDbLine
 10
81.0804560772
 20
317.7980271135
 30
0.0
 11
81.0804560772
 21
236.1444544945
 31
0.0
  0
LINE
  5
AE
330
1F
100
AcDbEntity
  8
0
  6
Continuous
 62
     7
370
    25
100
AcDbLine
 10
216.080453991
 20
486.1444544945
 30
0.0
 11
56.0804575673
 21
486.1444544945
 31
0.0
  0
LINE
  5
AF
330
1F
100
AcDbEntity
  8
0
  6
Continuous
 62
     7
370
    25
100
AcDbLine
 10
191.0804554812
 20
236.1444544945
 30
0.0
 11
81.0804560772
 21
236.1444544945
 31
0.0
  0
LINE
  5
B0
330
1F
100
AcDbEntity
  8
0
  6
Continuous
 62
     1
370
    25
100
AcDbLine
 10
216.080453991
 20
388.490879253
 30
0.0
 11
56.0804575673
 21
388.490879253
 31
0.0
  0
LINE
  5
B1
330
1F
100
AcDbEntity
  8
0
  6
Continuous
 62
     1
370
    25
100
AcDbLine
 10
215.9639418117
 20
387.8182073091
 30
0.0
 11
56.1969697467
 21
387.8182073091
 31
0.0
  0
LINE
  5
B2
330
1F
100
AcDbEntity
  8
0
  6
Continuous
 62
     1
370
    25
100
AcDbLine
 10
191.1969713858
 20
318.4706990574
 30
0.0
 11
80.9639401725
 21
318.4706990574
 31
0.0
  0
LINE
  5
B3
330
1F
100
AcDbEntity
  8
0
  6
Continuous
 62
     1
370
    25
100
AcDbLine
 10
191.0804554812
 20
317.7980271135
 30
0.0
 11
81.0804560772
 21
317.7980271135
 31
0.0
  0
LINE
  5
B4
330
1F
100
AcDbEntity
  8
0
  6
Continuous
 62
     7
370
    25
100
AcDbLine
 10
445.0861188051
 20
38.8813220259
 30
0.0
 11
542.7396940466
 21
38.8813220259
 31
0.0
  0
LINE
  5
B5
330
1F
100
AcDbEntity
  8
0
  6
Continuous
 62
     7
370
    25
100
AcDbLine
 10
542.7396940466
 20
198.8813184496
 30
0.0
 11
445.0861188051
 21
198.8813184496
 31
0.0
  0
ARC
  5
B6
330
1F
100
AcDbEntity
  8
0
  6
Continuous
 62
     7
370
    25
100
AcDbCircle
 10
445.0861204155
 20
40.8813202377
 30
0.0
 40
1.999999999999997
100
AcDbArc
 50
250.3461759419
 51
270.0
  0
ARC
  5
B7
330
1F
100
AcDbEntity
  8
0
  6
Continuous
 62
     7
370
    25
100
AcDbCircle
 10
445.0861204155
 20
196.8813202377
 30
0.0
 40
2.000000000000004
100
AcDbArc
 50
90.0
 51
109.6538240581
  0
LINE
  5
B8
330
1F
100
AcDbEntity
  8
0
  6
Continuous
 62
     7
370
    25
100
AcDbLine
 10
444.4134468612
 20
198.7648062702
 30
0.0
 11
375.0659386095
 21
173.9978358444
 31
0.0
  0
LINE
  5
B9
330
1F
100
AcDbEntity
  8
0
  6
Continuous
 62
     7
370
    25
100
AcDbLine
 10
375.0659386095
 20
63.7648046311
 30
0.0
 11
444.4134468612
 21
38.9978342052
 31
0.0
  0
ARC
  5
BA
330
1F
100
AcDbEntity
  8
0
  6
Continuous
 62
     7
370
    25
100
AcDbCircle
 10
374.3932654176
 20
61.8813202377
 30
0.0
 40
2.000000000000014
100
AcDbArc
 50
70.3461759419
 51
90.0
  0
ARC
  5
BB
330
1F
100
AcDbEntity
  8
0
  6
Continuous
 62
     7
370
    25
100
AcDbCircle
 10
374.3932654176
 20
175.8813202377
 30
0.0
 40
2.000000000000028
100
AcDbArc
 50
270.0
 51
289.6538240581
  0
LINE
  5
BC
330
1F
100
AcDbEntity
  8
0
  6
Continuous
 62
     7
370
    25
100
AcDbLine
 10
292.7396940466
 20
63.8813205357
 30
0.0
 11
374.3932666656
 21
63.8813205357
 31
0.0
  0
LINE
  5
BD
330
1F
100
AcDbEntity
  8
0
  6
Continuous
 62
     7
370
    25
100
AcDbLine
 10
374.3932666656
 20
173.8813199397
 30
0.0
 11
292.7396940466
 21
173.8813199397
 31
0.0
  0
LINE
  5
BE
330
1F
100
AcDbEntity
  8
0
  6
Continuous
 62
     7
370
    25
100
AcDbLine
 10
542.7396940466
 20
118.8813202377
 30
0.0
 11
542.7396940466
 21
198.8813184496
 31
0.0
  0
LINE
  5
BF
330
1F
100
AcDbEntity
  8
0
  6
Continuous
 62
     7
370
    25
100
AcDbLine
 10
542.7396940466
 20
38.8813220259
 30
0.0
 11
542.7396940466
 21
118.8813202377
 31
0.0
  0
LINE
  5
C0
330
1F
100
AcDbEntity
  8
0
  6
Continuous
 62
     7
370
    25
100
AcDbLine
 10
292.7396940466
 20
118.8813202377
 30
0.0
 11
292.7396940466
 21
173.8813199397
 31
0.0
  0
LINE
  5
C1
330
1F
100
AcDbEntity
  8
0
  6
Continuous
 62
     7
370
    25
100
AcDbLine
 10
292.7396940466
 20
63.8813205357
 30
0.0
 11
292.7396940466
 21
118.8813202377
 31
0.0
  0
LINE
  5
C2
330
1F
100
AcDbEntity
  8
0
  6
Continuous
 62
     1
370
    25
100
AcDbLine
 10
445.0861188051
 20
118.8813202377
 30
0.0
 11
445.0861188051
 21
198.8813184496
 31
0.0
  0
LINE
  5
C3
330
1F
100
AcDbEntity
  8
0
  6
Continuous
 62
     1
370
    25
100
AcDbLine
 10
445.0861188051
 20
38.8813220259
 30
0.0
 11
445.0861188051
 21
118.8813202377
 31
0.0
  0
LINE
  5
C4
330
1F
100
AcDbEntity
  8
0
  6
Continuous
 62
     1
370
    25
100
AcDbLine
 10
444.4134468612
 20
118.8813202377
 30
0.0
 11
444.4134468612
 21
198.7648062702
 31
0.0
  0
LINE
  5
C5
330
1F
100
AcDbEntity
  8
0
  6
Continuous
 62
     1
370
    25
100
AcDbLine
 10
444.4134468612
 20
38.9978342052
 30
0.0
 11
444.4134468612
 21
118.8813202377
 31
0.0
  0
LINE
  5
C6
330
1F
100
AcDbEntity
  8
0
  6
Continuous
 62
     1
370
    25
100
AcDbLine
 10
375.0659386095
 20
118.8813202377
 30
0.0
 11
375.0659386095
 21
173.9978358444
 31
0.0
  0
LINE
  5
C7
330
1F
100
AcDbEntity
  8
0
  6
Continuous
 62
     1
370
    25
100
AcDbLine
 10
375.0659386095
 20
63.7648046311
 30
0.0
 11
375.0659386095
 21
118.8813202377
 31
0.0
  0
LINE
  5
C8
330
1F
100
AcDbEntity
  8
0
  6
Continuous
 62
     1
370
    25
100
AcDbLine
 10
374.3932666656
 20
118.8813202377
 30
0.0
 11
374.3932666656
 21
173.8813199397
 31
0.0
  0
LINE
  5
C9
330
1F
100
AcDbEntity
  8
0
  6
Continuous
 62
     1
370
    25
100
AcDbLine
 10
374.3932666656
 20
63.8813205357
 30
0.0
 11
374.3932666656
 21
118.8813202377
 31
0.0
  0
LINE
  5
CA
330
1F
100
AcDbEntity
  8
0
  6
Continuous
 62
     7
370
    25
100
AcDbLine
 10
56.0804575673
 20
-188.3789751879
 30
0.0
 11
56.0804575673
 21
-286.0325504295
 31
0.0
  0
LINE
  5
CB
330
1F
100
AcDbEntity
  8
0
  6
Continuous
 62
     7
370
    25
100
AcDbLine
 10
216.080453991
 20
-286.0325504295
 30
0.0
 11
216.080453991
 21
-188.3789751879
 31
0.0
  0
ARC
  5
CC
330
1F
100
AcDbEntity
  8
0
  6
Continuous
 62
     7
370
    25
100
AcDbCircle
 10
58.0804557792
 20
-188.3789767983
 30
0.0
 40
1.999999999999988
100
AcDbArc
 50
160.3461759419
 51
180.0
  0
ARC
  5
CD
330
1F
100
AcDbEntity
  8
0
  6
Continuous
 62
     7
370
    25
100
AcDbCircle
 10
214.0804557792
 20
-188.3789767983
 30
0.0
 40
2.000000000000021
100
AcDbArc
 50
0.0
 51
19.6538240581
  0
LINE
  5
CE
330
1F
100
AcDbEntity
  8
0
  6
Continuous
 62
     7
370
    25
100
AcDbLine
 10
215.9639418117
 20
-187.706303244
 30
0.0
 11
191.1969713858
 21
-118.3587949923
 31
0.0
  0
LINE
  5
CF
330
1F
100
AcDbEntity
  8
0
  6
Continuous
 62
     7
370
    25
100
AcDbLine
 10
80.9639401725
 20
-118.3587949923
 30
0.0
 11
56.1969697467
 21
-187.706303244
 31
0.0
  0
ARC
  5
D0
330
1F
100
AcDbEntity
  8
0
  6
Continuous
 62
     7
370
    25
100
AcDbCircle
 10
79.0804557792
 20
-117.6861218004
 30
0.0
 40
2.000000000000016
100
AcDbArc
 50
340.3461759419
 51
0.0
  0
ARC
  5
D1
330
1F
100
AcDbEntity
  8
0
  6
Continuous
 62
     7
370
    25
100
AcDbCircle
 10
193.0804557792
 20
-117.6861218004
 30
0.0
 40
2.000000000000043
100
AcDbArc
 50
180.0
 51
199.6538240581
  0
LINE
  5
D2
330
1F
100
AcDbEntity
  8
0
  6
Continuous
 62
     7
370
    25
100
AcDbLine
 10
81.0804560772
 20
-36.0325504295
 30
0.0
 11
81.0804560772
 21
-117.6861230484
 31
0.0
  0
LINE
  5
D3
330
1F
100
AcDbEntity
  8
0
  6
Continuous
 62
     7
370
    25
100
AcDbLine
 10
191.0804554812
 20
-117.6861230484
 30
0.0
 11
191.0804554812
 21
-36.0325504295
 31
0.0
  0
LINE
  5
D4
330
1F
100
AcDbEntity
  8
0
  6
Continuous
 62
     7
370
    25
100
AcDbLine
 10
56.0804575673
 20
-286.0325504295
 30
0.0
 11
216.080453991
 21
-286.0325504295
 31
0.0
  0
LINE
  5
D5
330
1F
100
AcDbEntity
  8
0
  6
Continuous
 62
     7
370
    25
100
AcDbLine
 10
81.0804560772
 20
-36.0325504295
 30
0.0
 11
191.0804554812
 21
-36.0325504295
 31
0.0
  0
LINE
  5
D6
330
1F
100
AcDbEntity
  8
0
  6
Continuous
 62
     1
370
    25
100
AcDbLine
 10
56.0804575673
 20
-188.3789751879
 30
0.0
 11
216.080453991
 21
-188.3789751879
 31
0.0
  0
LINE
  5
D7
330
1F
100
AcDbEntity
  8
0
  6
Continuous
 62
     1
370
    25
100
AcDbLine
 10
56.1969697467
 20
-187.706303244
 30
0.0
 11
215.9639418117
 21
-187.706303244
 31
0.0
  0
LINE
  5
D8
330
1F
100
AcDbEntity
  8
0
  6
Continuous
 62
     1
370
    25
100
AcDbLine
 10
80.9639401725
 20
-118.3587949923
 30
0.0
 11
191.1969713858
 21
-118.3587949923
 31
0.0
  0
LINE
  5
D9
330
1F
100
AcDbEntity
  8
0
  6
Continuous
 62
     1
370
    25
100
AcDbLine
 10
81.0804560772
 20
-117.6861230484
 30
0.0
 11
191.0804554812
 21
-117.6861230484
 31
0.0
  0
LINE
  5
DA
330
1F
100
AcDbEntity
  8
0
  6
Continuous
 62
     7
370
    25
100
AcDbLine
 10
446.9517136159
 20
-91.5266894603
 30
0.0
 11
377.9002083555
 21
-51.6641039725
 31
0.0
  0
LINE
  5
DB
330
1F
100
AcDbEntity
  8
0
  6
Continuous
 62
     7
370
    25
100
AcDbLine
 10
297.9067121404
 20
-190.2319178647
 30
0.0
 11
366.9582174009
 21
-230.0945033526
 31
0.0
  0
SPLINE
  5
DC
330
1F
100
AcDbEntity
  8
0
  6
Continuous
 62
     7
370
    25
100
AcDbSpline
210
0.0
220
0.0
230
1.0
 70
     8
 71
     3
 72
    10
 73
     6
 74
     0
 42
0.000000001
 43
0.00000001
 40
0.0
 40
0.0
 40
0.0
 40
0.0
 40
0.1101030693359367
 40
0.5961803965783283
 40
1.0
 40
1.0
 40
1.0
 40
1.0
 10
453.8016143650867
 20
-97.08119499906384
 30
0.0
 10
453.6780306020572
 20
-96.9379452221668
 30
0.0
 10
453.008855643558
 20
-96.16228375046283
 30
0.0
 10
451.7786986938308
 20
-94.9977512538158
 30
0.0
 10
450.6127681868161
 20
-94.06749313711958
 30
0.0
 10
450.0836893927039
 20
-93.64535833608846
 30
0.0
  0
SPLINE
  5
DD
330
1F
100
AcDbEntity
  8
0
  6
Continuous
 62
     7
370
    25
100
AcDbSpline
210
0.0
220
0.0
230
1.0
 70
     8
 71
     3
 72
    10
 73
     6
 74
     0
 42
0.000000001
 43
0.00000001
 40
0.0
 40
0.0
 40
0.0
 40
0.0
 40
0.2493937091768079
 40
0.7285513164213405
 40
1.0
 40
1.0
 40
1.0
 40
1.0
 10
370.3402938937866
 20
-231.7272487199063
 30
0.0
 10
370.7277304591937
 20
-231.8907847459243
 30
0.0
 10
371.8595449732359
 20
-232.3685208822168
 30
0.0
 10
373.4860819461126
 20
-232.8769273030819
 30
0.0
 10
374.7522433702474
 20
-233.1473996047605
 30
0.0
 10
375.2101370169987
 20
-233.2452130005883
 30
0.0
  0
LINE
  5
DE
330
1F
100
AcDbEntity
  8
0
  6
Continuous
 62
     7
370
    25
100
AcDbLine
 10
378.8753152085
 20
-233.8493185845
 30
0.0
 11
436.7646556947
 21
-239.5975608937
 31
0.0
  0
LINE
  5
DF
330
1F
100
AcDbEntity
  8
0
  6
Continuous
 62
     7
370
    25
100
AcDbLine
 10
490.0900482988
 20
-147.2252626284
 30
0.0
 11
456.1628204301
 21
-99.9689265531
 31
0.0
  0
LINE
  5
E0
330
1F
100
AcDbEntity
  8
0
  6
Continuous
 62
     7
370
    25
100
AcDbLine
 10
542.1779211856
 20
-175.3663358293
 30
0.0
 11
487.7253519479
 21
-143.9315367168
 31
0.0
  0
LINE
  5
E1
330
1F
100
AcDbEntity
  8
0
  6
Continuous
 62
     7
370
    25
100
AcDbLine
 10
432.7298206658
 20
-239.1969148512
 30
0.0
 11
487.1823899036
 21
-270.6317139636
 31
0.0
  0
LWPOLYLINE
  5
E2
330
1F
100
AcDbEntity
  8
0
  6
Continuous
 62
     7
370
    25
100
AcDbPolyline
 90
      118
 70
   128
 43
0.0
 10
281.3349190174
 20
-153.6043346616
 10
281.416467901
 20
-150.0509247002
 10
281.6608880122
 20
-146.4136007741
 10
282.0674681231
 20
-142.7028545428
 10
282.6350333902
 20
-138.9293859892
 10
283.3619558915
 20
-135.1040688194
 10
284.2461388214
 20
-131.2379356323
 10
285.2850217587
 20
-127.3421391363
 10
286.4756228139
 20
-123.4279004422
 10
287.8145017505
 20
-119.5065166638
 10
289.297802132
 20
-115.5892863969
 10
290.921246053
 20
-111.6875036349
 10
292.6801499452
 20
-107.8124258311
 10
294.5694430158
 20
-103.9752206675
 10
296.5836804188
 20
-100.1869523685
 10
298.7170537917
 20
-96.458542157
 10
300.9634096945
 20
-92.8007454427
 10
303.3162759519
 20
-89.2241031549
 10
305.768864287
 20
-85.7389250126
 10
308.3141072002
 20
-82.355265193
 10
310.9446632373
 20
-79.082879746
 10
313.6529459657
 20
-75.9312037833
 10
316.4311516328
 20
-72.9093172602
 10
319.2712670691
 20
-70.0259464968
 10
322.1651039321
 20
-67.2893896563
 10
325.1043184631
 20
-64.7075479257
 10
328.0804358526
 20
-62.2878627798
 10
331.0848759243
 20
-60.0373133223
 10
334.1089755253
 20
-57.9623790247
 10
337.1440158554
 20
-56.0690482846
 10
340.181245846
 20
-54.3627866782
 10
343.2119081722
 20
-52.8485036926
 10
346.2272652655
 20
-51.5305681278
 10
349.2186220335
 20
-50.4127828131
 10
352.1773545066
 20
-49.49836807
 10
355.0949318992
 20
-48.7899611438
 10
357.9629419637
 20
-48.2896076509
 10
360.7731146983
 20
-47.9987418086
 10
363.5173486884
 20
-47.918207731
 10
366.1877308632
 20
-48.0482419402
 10
368.7765641545
 20
-48.3884634823
 10
371.2763806676
 20
-48.9378906596
 10
373.6799732913
 20
-49.6949440747
 10
375.9804141375
 20
-50.6574390283
 10
378.1710703458
 20
-51.8225976874
 10
380.2456225232
 20
-53.1870627759
 10
382.1980910855
 20
-54.7469036605
 10
384.0228494285
 20
-56.4976148311
 10
385.7146291961
 20
-58.434158487
 10
387.2685624273
 20
-60.5509402066
 10
388.6801604827
 20
-62.8418667399
 10
389.9453561914
 20
-65.30032472
 10
391.0605038511
 20
-67.9192308534
 10
392.0223844962
 20
-70.6910319207
 10
392.828221703
 20
-73.6077397591
 10
393.4757026632
 20
-76.6609396298
 10
393.9629518422
 20
-79.8418312801
 10
394.2885678571
 20
-83.1412422555
 10
394.4516129405
 20
-86.5496586968
 10
394.4516129405
 20
-90.0572557593
 10
394.2885678571
 20
-93.6539200471
 10
393.9629518422
 20
-97.3292792709
 10
393.4757026632
 20
-101.0727368487
 10
392.828221703
 20
-104.8735023236
 10
392.0223844962
 20
-108.720609997
 10
391.0605038511
 20
-112.602974818
 10
389.9453561914
 20
-116.5094030337
 10
388.6801604827
 20
-120.4286248858
 10
387.2685624273
 20
-124.3493478427
 10
385.7146291961
 20
-128.2602626818
 10
384.0228494285
 20
-132.1500936805
 10
382.1980910855
 20
-136.0076259889
 10
380.2456225232
 20
-139.821739092
 10
378.1710703458
 20
-143.5814311407
 10
375.9804141375
 20
-147.2758676208
 10
373.6799732913
 20
-150.8943950401
 10
371.2763806676
 20
-154.4265774284
 10
368.7765641545
 20
-157.8622313166
 10
366.1877308632
 20
-161.1914561541
 10
363.5173486884
 20
-164.4046479954
 10
360.7731146983
 20
-167.492539041
 10
357.9629419637
 20
-170.4462295757
 10
355.0949318992
 20
-173.2572100196
 10
352.1773545066
 20
-175.917366249
 10
349.2186220335
 20
-178.419031306
 10
346.2272652655
 20
-180.7549930006
 10
343.2119081722
 20
-182.9185146308
 10
340.181245846
 20
-184.903359886
 10
337.1440158554
 20
-186.7038093843
 10
334.1089755253
 20
-188.3146616207
 10
331.0848759243
 20
-189.7312784026
 10
328.0804358526
 20
-190.9495816153
 10
325.1043184631
 20
-191.9660484669
 10
322.1651039321
 20
-192.7777516001
 10
319.2712670691
 20
-193.3823476832
 10
316.4311516328
 20
-193.7781044044
 10
313.6529459657
 20
-193.9638658677
 10
310.9446632373
 20
-193.9391065849
 10
308.3141072002
 20
-193.7038964903
 10
305.768864287
 20
-193.2589115868
 10
303.3162759519
 20
-192.6054316619
 10
300.9634096945
 20
-191.7453509312
 10
298.7170537917
 20
-190.6811415363
 10
296.5836804188
 20
-189.4158717916
 10
294.5694430158
 20
-187.9531924965
 10
292.6801499452
 20
-186.2973186814
 10
290.921246053
 20
-184.4530280849
 10
289.297802132
 20
-182.4256337767
 10
287.8145017505
 20
-180.2209856769
 10
286.4756228139
 20
-177.8454386147
 10
285.2850217587
 20
-175.3058386389
 10
284.2461388214
 20
-172.609510851
 10
283.3619558915
 20
-169.7642335451
 10
282.6350333902
 20
-166.7782032306
 10
282.0674681231
 20
-163.660031586
 10
281.6608880122
 20
-160.4187127587
 10
281.416467901
 20
-157.0635902862
 10
281.3349190174
 20
-153.6043346616
  0
LWPOLYLINE
  5
E3
330
1F
100
AcDbEntity
  8
0
  6
Continuous
 62
     7
370
    25
100
AcDbPolyline
 90
      110
 70
   128
 43
0.0
 10
288.0524312471
 20
-149.7263973956
 10
288.1352339993
 20
-146.3620975626
 10
288.3833577649
 20
-142.9133767659
 10
288.7959806802
 20
-139.3916905414
 10
289.371738241
 20
-135.8087331596
 10
290.1087127657
 20
-132.1764117683
 10
291.0044544687
 20
-128.5067908815
 10
292.0559919973
 20
-124.8120589195
 10
293.2598271629
 20
-121.1044924671
 10
294.611969186
 20
-117.3964060859
 10
296.1079162561
 20
-113.7001173313
 10
297.742705582
 20
-110.0279056924
 10
299.5109054885
 20
-106.3919684844
 10
301.4066417585
 20
-102.8043843485
 10
303.4236160725
 20
-99.2770752311
 10
305.5551297157
 20
-95.8217501112
 10
307.7940993833
 20
-92.4498958765
 10
310.133091425
 20
-89.1727058432
 10
312.5643323813
 20
-86.0010736734
 10
315.0797484967
 20
-82.9455279787
 10
317.6709828412
 20
-80.0162285196
 10
320.3294269212
 20
-77.2228962459
 10
323.0462496547
 20
-74.5748148204
 10
325.8124263478
 20
-72.0807773891
 10
328.6187696461
 20
-69.7490747973
 10
331.4559545593
 20
-67.5874507238
 10
334.3145579741
 20
-65.6030849554
 10
337.1850831848
 20
-63.8025731413
 10
340.0579947961
 20
-62.1918883931
 10
342.9237491811
 20
-60.7763819531
 10
345.7728267496
 20
-59.5607645659
 10
348.5957627353
 20
-58.5490704548
 10
351.383180123
 20
-57.7446565636
 10
354.1258204354
 20
-57.1501969519
 10
356.8145707336
 20
-56.7676732912
 10
359.440499837
 20
-56.5983417888
 10
361.9948859822
 20
-56.6427780572
 10
364.4692405304
 20
-56.9008299676
 10
366.8553474803
 20
-57.3716404679
 10
369.1452805904
 20
-58.0536437818
 10
371.3314297201
 20
-58.9445775785
 10
373.406537709
 20
-60.0414768927
 10
375.363705645
 20
-61.3407045436
 10
377.1964323765
 20
-62.8379435337
 10
378.8986355866
 20
-64.5282153023
 10
380.4646544266
 20
-66.4059086229
 10
381.889289029
 20
-68.46478417
 10
383.1678110444
 20
-70.6980049387
 10
384.2959662752
 20
-73.0981514537
 10
385.2700062861
 20
-75.6572521913
 10
386.0867068431
 20
-78.366800311
 10
386.7433442062
 20
-81.2178008022
 10
387.2377425443
 20
-84.2007796141
 10
387.568252862
 20
-87.3058319429
 10
387.7337846095
 20
-90.5226385852
 10
387.7337846095
 20
-93.8405153657
 10
387.568252862
 20
-97.2484408956
 10
387.2377425443
 20
-100.7350923146
 10
386.7433442062
 20
-104.2888912974
 10
386.0867068431
 20
-107.8980291507
 10
385.2700062861
 20
-111.5505196624
 10
384.2959662752
 20
-115.2342230587
 10
383.1678110444
 20
-118.9369098779
 10
381.889289029
 20
-122.6462807448
 10
380.4646544266
 20
-126.3500043924
 10
378.8986355866
 20
-130.0357845794
 10
377.1964323765
 20
-133.6913783412
 10
375.363705645
 20
-137.3046385748
 10
373.406537709
 20
-140.8635642255
 10
371.3314297201
 20
-144.3563322263
 10
369.1452805904
 20
-147.7713400817
 10
366.8553474803
 20
-151.0972438874
 10
364.4692405304
 20
-154.3229948316
 10
361.9948859822
 20
-157.4378756941
 10
359.440499837
 20
-160.4315434294
 10
356.8145707336
 20
-163.2940451355
 10
354.1258204354
 20
-166.0158864909
 10
351.383180123
 20
-168.5880119812
 10
348.5957627353
 20
-171.0018817027
 10
345.7728267496
 20
-173.2494801047
 10
342.9237491811
 20
-175.3233376597
 10
340.0579947961
 20
-177.2165608043
 10
337.1850831848
 20
-178.9228691983
 10
334.3145579741
 20
-180.4365952469
 10
331.4559545593
 20
-181.7527027287
 10
328.6187696461
 20
-182.8668226299
 10
325.8124263478
 20
-183.775255042
 10
323.0462496547
 20
-184.4749772396
 10
320.3294269212
 20
-184.963672574
 10
317.6709828412
 20
-185.2397145016
 10
315.0797484967
 20
-185.3021905349
 10
312.5643323813
 20
-185.1508824686
 10
310.133091425
 20
-184.7863013572
 10
307.7940993833
 20
-184.2096540526
 10
305.5551297157
 20
-183.4228591716
 10
303.4236160725
 20
-182.4285273203
 10
301.4066417585
 20
-181.229967177
 10
299.5109054885
 20
-179.8311535493
 10
297.742705582
 20
-178.2367364983
 10
296.1079162561
 20
-176.4520124388
 10
294.611969186
 20
-174.4829074072
 10
293.2598271629
 20
-172.3359709758
 10
292.0559919973
 20
-170.0183230204
 10
291.0044544687
 20
-167.5376704466
 10
290.1087127657
 20
-164.9022509165
 10
289.371738241
 20
-162.1208221997
 10
288.7959806802
 20
-159.2026203478
 10
288.3833577649
 20
-156.1573384008
 10
288.1352339993
 20
-152.9950952059
 10
288.0524312471
 20
-149.7263973956
  0
ARC
  5
E4
330
1F
100
AcDbEntity
  8
0
  6
Continuous
 62
     7
370
    25
100
AcDbCircle
 10
433.5458963769
 20
-114.7411192645
 30
0.0
 40
26.80719468682216
100
AcDbArc
 50
52.2884546096
 51
59.9945212034
  0
ARC
  5
E5
330
1F
100
AcDbEntity
  8
0
  6
Continuous
 62
     7
370
    25
100
AcDbCircle
 10
380.3698984899
 20
-206.8507538787
 30
0.0
 40
26.83551898586095
100
AcDbArc
 50
240.0149843799
 51
247.659940495
  0
ARC
  5
E6
330
1F
100
AcDbEntity
  8
0
  6
Continuous
 62
     7
370
    25
100
AcDbCircle
 10
429.5693802413
 20
-119.1615917741
 30
0.0
 40
32.79292455720721
100
AcDbArc
 50
26.0855729505
 51
42.0814252903
  0
ARC
  5
E7
330
1F
100
AcDbEntity
  8
0
  6
Continuous
 62
     7
370
    25
100
AcDbCircle
 10
382.2065234653
 20
-201.0539223123
 30
0.0
 40
32.95947503332114
100
AcDbArc
 50
257.990779236
 51
273.6864814393
  0
LWPOLYLINE
  5
E8
330
1F
100
AcDbEntity
  8
0
  6
Continuous
 62
     7
370
    25
100
AcDbPolyline
 90
        3
 70
   128
 43
0.0
 10
490.0900482988
 20
-147.2252626284
 10
490.9305908012
 20
-148.4835151852
 10
491.9408323207
 20
-150.276387557
  0
LWPOLYLINE
  5
E9
330
1F
100
AcDbEntity
  8
0
  6
Continuous
 62
     7
370
    25
100
AcDbPolyline
 90
        3
 70
   128
 43
0.0
 10
439.8609291395
 20
-239.6946689992
 10
438.8294759014
 20
-239.7075571186
 10
436.7646556947
 20
-239.5975608937
  0
LWPOLYLINE
  5
EA
330
1F
100
AcDbEntity
  8
0
  6
Continuous
 62
     7
370
    25
100
AcDbPolyline
 90
       50
 70
   128
 43
0.0
 10
542.1779211856
 20
-175.3663358293
 10
543.2706414535
 20
-176.0493948759
 10
544.9172477021
 20
-177.2997488543
 10
546.437028815
 20
-178.7417792924
 10
547.8236127158
 20
-180.3694399122
 10
549.071177871
 20
-182.1759057736
 10
550.1744980713
 20
-184.153596092
 10
551.1289424318
 20
-186.2942183455
 10
551.9305070019
 20
-188.5887926127
 10
552.5758305703
 20
-191.0276964411
 10
553.0622078363
 20
-193.6006983092
 10
553.3875973119
 20
-196.2970066768
 10
553.5506318586
 20
-199.1053140928
 10
553.5506318586
 20
-202.0138390221
 10
553.3875973119
 20
-205.0103821191
 10
553.0622078363
 20
-208.0823771784
 10
552.5758305703
 20
-211.2169382847
 10
551.9305070019
 20
-214.4009168459
 10
551.1289424318
 20
-217.6209578665
 10
550.1744980713
 20
-220.8635581224
 10
549.071177871
 20
-224.1151148291
 10
547.8236127158
 20
-227.3619887587
 10
546.437028815
 20
-230.5905650739
 10
544.9172477021
 20
-233.7872974352
 10
543.2706414535
 20
-236.9387825214
 10
541.5041142501
 20
-240.0317995726
 10
539.625081303
 20
-243.0533712249
 10
537.6414188044
 20
-245.9908319475
 10
535.5614494398
 20
-248.8318546572
 10
533.393897607
 20
-251.5645282821
 10
531.1478525372
 20
-254.1773851342
 10
528.8327366852
 20
-256.6594708691
 10
526.4582596313
 20
-259.0003741401
 10
524.0343812025
 20
-261.1902722221
 10
521.5712680091
 20
-263.2199834796
 10
519.0792509679
 20
-265.0809979715
 10
516.5687828267
 20
-266.7655019717
 10
514.0503929713
 20
-268.2664344773
 10
511.5346447025
 20
-269.5775027458
 10
509.0320893029
 20
-270.693202729
 10
506.5532243833
 20
-271.6088552856
 10
504.1084470446
 20
-272.3206210536
 10
501.7080101662
 20
-272.8255196003
 10
499.3619835521
 20
-273.1214244756
 10
497.0802071744
 20
-273.2070993297
 10
494.8722496847
 20
-273.0821853616
 10
492.7473741702
 20
-272.7472028366
 10
490.7144933721
 20
-272.2035586868
 10
488.7821314907
 20
-271.4535381426
 10
487.1823899036
 20
-270.6317139636
  0
LWPOLYLINE
  5
EB
330
1F
100
AcDbEntity
  8
0
  6
Continuous
 62
     1
370
    25
100
AcDbPolyline
 90
       57
 70
   128
 43
0.0
 10
449.9434944866
 20
-93.5339397441
 10
451.249596346
 20
-94.6094891484
 10
453.074354689
 20
-96.3602003189
 10
454.7661344565
 20
-98.2967439749
 10
456.3200676877
 20
-100.4135256944
 10
457.7316657431
 20
-102.7044522277
 10
458.9968614519
 20
-105.1629102078
 10
460.1120091115
 20
-107.7818163412
 10
461.0738897566
 20
-110.5536174085
 10
461.8797269634
 20
-113.470325247
 10
462.5272079237
 20
-116.5235251177
 10
463.0144571026
 20
-119.704416768
 10
463.3400731175
 20
-123.0038277433
 10
463.5031182009
 20
-126.4122441846
 10
463.5031182009
 20
-129.9198412472
 10
463.3400731175
 20
-133.5165055349
 10
463.0144571026
 20
-137.1918647588
 10
462.5272079237
 20
-140.9353223365
 10
461.8797269634
 20
-144.7360878115
 10
461.0738897566
 20
-148.5831954848
 10
460.1120091115
 20
-152.4655603059
 10
458.9968614519
 20
-156.3719885215
 10
457.7316657431
 20
-160.2912103737
 10
456.3200676877
 20
-164.2119333306
 10
454.7661344565
 20
-168.1228481696
 10
453.074354689
 20
-172.0126791683
 10
451.249596346
 20
-175.8702114767
 10
449.2971277836
 20
-179.6843245799
 10
447.2225756062
 20
-183.4440166286
 10
445.0319193979
 20
-187.1384531087
 10
442.7314785517
 20
-190.756980528
 10
440.327885928
 20
-194.2891629162
 10
437.8280694149
 20
-197.7248168044
 10
435.2392361236
 20
-201.0540416419
 10
432.5688539488
 20
-204.2672334832
 10
429.8246199587
 20
-207.3551245289
 10
427.0144472241
 20
-210.3088150636
 10
424.1464371596
 20
-213.1197955074
 10
421.228859767
 20
-215.7799517368
 10
418.2701272939
 20
-218.2816167939
 10
415.2787705259
 20
-220.6175784884
 10
412.2634134326
 20
-222.7811001186
 10
409.2327511064
 20
-224.7659453739
 10
406.1955211158
 20
-226.5663948722
 10
403.1604807857
 20
-228.1772471086
 10
400.1363811848
 20
-229.5938638905
 10
397.131941113
 20
-230.8121671032
 10
394.1558237235
 20
-231.8286339547
 10
391.2166091925
 20
-232.6403370879
 10
388.3227723295
 20
-233.2449331711
 10
385.4826568932
 20
-233.6406898922
 10
382.7044512261
 20
-233.8264513556
 10
379.9961684978
 20
-233.8016920728
 10
377.3656124606
 20
-233.5664819782
 10
374.8203695474
 20
-233.1214970747
 10
372.3677812123
 20
-232.4680171497
 10
370.16963867
 20
-231.6721111914
  0
ARC
  5
EC
330
1F
100
AcDbEntity
  8
0
  6
Continuous
 62
     1
370
    25
100
AcDbCircle
 10
475.9241513053
 20
-200.6256552116
 30
0.0
 40
120.7687553282968
100
AcDbArc
 50
142.4267375265
 51
157.5786423147
  0
LWPOLYLINE
  5
ED
330
1F
100
AcDbEntity
  8
0
  6
Continuous
 62
     1
370
    25
100
AcDbPolyline
 90
       47
 70
   128
 43
0.0
 10
459.0219625343
 20
-104.7421154561
 10
459.3967165062
 20
-105.5185467301
 10
460.5102362439
 20
-108.1336382289
 10
461.4707155062
 20
-110.9014041486
 10
462.275383138
 20
-113.8138624107
 10
462.9219210625
 20
-116.8626142454
 10
463.4084590134
 20
-120.0388738495
 10
463.7336008762
 20
-123.3334794154
 10
463.8964088836
 20
-126.7369315327
 10
463.8964088836
 20
-130.2394198055
 10
463.7336008762
 20
-133.8308460471
 10
463.4084590134
 20
-137.5008524171
 10
462.9219210625
 20
-141.2388567822
 10
462.275383138
 20
-145.0340854154
 10
461.4707155062
 20
-148.8755931497
 10
460.5102362439
 20
-152.7523048212
 10
459.3967165062
 20
-156.6530388434
 10
458.1333647221
 20
-160.5665543551
 10
456.7238213256
 20
-164.4815649075
 10
455.1721534875
 20
-168.386785613
 10
453.4828340422
 20
-172.2709498731
 10
451.660736219
 20
-176.1228641313
 10
449.7111099348
 20
-179.9314215593
 10
447.6395765254
 20
-183.6856416003
 10
445.4521129408
 20
-187.3746973445
 10
443.1550227691
 20
-190.9879535495
 10
440.754930968
 20
-194.5149909743
 10
438.258754889
 20
-197.9456413583
 10
435.6736937406
 20
-201.2700178383
 10
433.0071996126
 20
-204.4785255931
 10
430.2669616706
 20
-207.5619196361
 10
427.4608824486
 20
-210.5113124187
 10
424.5970501904
 20
-213.3181958805
 10
421.683721727
 20
-215.9744756688
 10
418.7292987692
 20
-218.4725030757
 10
415.7422982731
 20
-220.8050617273
 10
412.7313330131
 20
-222.9654335521
 10
409.7050844169
 20
-224.9473840442
 10
406.6722781167
 20
-226.745206796
 10
403.6416581842
 20
-228.3537201207
 10
400.621962929
 20
-229.7682749405
 10
397.6218988855
 20
-230.9848002214
 10
394.6501153774
 20
-231.9997872386
 10
391.7151827028
 20
-232.8103082538
 10
388.8255605246
 20
-233.4140225955
 10
385.9895820649
 20
-233.8091979506
 10
384.3257140478
 20
-233.9451981426
  0
LWPOLYLINE
  5
EE
330
1F
100
AcDbEntity
  8
0
  6
Continuous
 62
     1
370
    25
100
AcDbPolyline
 90
       40
 70
   128
 43
0.0
 10
491.9408323207
 20
-150.276387557
 10
492.0362475174
 20
-150.4653958734
 10
492.9927122924
 20
-152.6105537172
 10
493.7959759073
 20
-154.9099890225
 10
494.4426666142
 20
-157.3540588037
 10
494.9300738438
 20
-159.9325117664
 10
495.2561508398
 20
-162.634533176
 10
495.4195330981
 20
-165.448788395
 10
495.4195330981
 20
-168.3634749749
 10
495.2561508398
 20
-171.366367334
 10
494.9300738438
 20
-174.4448692296
 10
494.4426666142
 20
-177.5860706012
 10
493.7959759073
 20
-180.7767935795
 10
492.9927122924
 20
-184.0036573137
 10
492.0362475174
 20
-187.2531258809
 10
490.9305908012
 20
-190.5115706412
 10
489.6803782971
 20
-193.7653249906
 10
488.290859922
 20
-197.0007406337
 10
486.7678572092
 20
-200.2042453752
 10
485.117763309
 20
-203.3624069983
 10
483.3474955728
 20
-206.461972805
 10
481.4644797484
 20
-209.489950223
 10
479.4766157359
 20
-212.4336326586
 10
477.3922407086
 20
-215.2806755397
 10
475.2200961864
 20
-218.0191366168
 10
472.969292474
 20
-220.6375299526
 10
470.6492717825
 20
-223.1248745887
 10
468.2697647656
 20
-225.4707348453
 10
465.8407516653
 20
-227.6652731702
 10
463.3724208237
 20
-229.699286257
 10
460.8751245605
 20
-231.5642396414
 10
458.3593380138
 20
-233.2523127554
 10
455.8356130424
 20
-234.756425539
 10
453.3145350906
 20
-236.0702694247
 10
450.8066784077
 20
-237.1883331896
 10
448.3225622543
 20
-238.1059282361
 10
445.8726048044
 20
-238.8192030369
 10
443.4670833038
 20
-239.3251661348
 10
441.1160859958
 20
-239.6217017279
 10
439.8609291395
 20
-239.6946689992
  0
ARC
  5
EF
330
1F
100
AcDbEntity
  8
0
  6
Continuous
 62
     1
370
    25
100
AcDbCircle
 10
477.6451650978
 20
-201.6191775586
 30
0.0
 40
121.2124805251202
100
AcDbArc
 50
146.0941611497
 51
153.9112176825
  0
LWPOLYLINE
  5
F0
330
1F
100
AcDbEntity
  8
0
  6
Continuous
 62
     1
370
    25
100
AcDbPolyline
 90
       44
 70
   128
 43
0.0
 10
489.1007959098
 20
-145.8473620875
 10
490.0858178089
 20
-147.0381203895
 10
491.333382964
 20
-148.8445862509
 10
492.4367031644
 20
-150.8222765693
 10
493.3911475248
 20
-152.9628988228
 10
494.1927120949
 20
-155.25747309
 10
494.8380356633
 20
-157.6963769184
 10
495.3244129293
 20
-160.2693787865
 10
495.6498024049
 20
-162.9656871541
 10
495.8128369517
 20
-165.7739945701
 10
495.8128369517
 20
-168.6825194994
 10
495.6498024049
 20
-171.6790625964
 10
495.3244129293
 20
-174.7510576557
 10
494.8380356633
 20
-177.885618762
 10
494.1927120949
 20
-181.0695973232
 10
493.3911475248
 20
-184.2896383438
 10
492.4367031644
 20
-187.5322385997
 10
491.333382964
 20
-190.7837953064
 10
490.0858178089
 20
-194.030669236
 10
488.6992339081
 20
-197.2592455512
 10
487.1794527951
 20
-200.4559779125
 10
485.5328465466
 20
-203.6074629987
 10
483.7663193431
 20
-206.7004800499
 10
481.887286396
 20
-209.7220517022
 10
479.9036238974
 20
-212.6595124247
 10
477.8236545329
 20
-215.5005351345
 10
475.6561027
 20
-218.2332087594
 10
473.4100576302
 20
-220.8460656115
 10
471.0949417782
 20
-223.3281513464
 10
468.7204647243
 20
-225.6690546174
 10
466.2965862955
 20
-227.8589526994
 10
463.8334731021
 20
-229.8886639569
 10
461.3414560609
 20
-231.7496784488
 10
458.8309879197
 20
-233.434182449
 10
456.3125980643
 20
-234.9351149546
 10
453.7968497956
 20
-236.2461832231
 10
451.2942943959
 20
-237.3618832063
 10
448.8154294764
 20
-238.2775357629
 10
446.3706521377
 20
-238.9893015309
 10
443.9702152592
 20
-239.4942000776
 10
441.6241886451
 20
-239.7901049529
 10
439.3424122674
 20
-239.875779807
 10
437.1344547777
 20
-239.7508658389
 10
435.0767165587
 20
-239.4299536143
  0
ENDSEC
  0
SECTION
  2
OBJECTS
  0
DICTIONARY
  5
C
330
0
100
AcDbDictionary
281
     1
  3
ACAD_GROUP
350
D
  3
ACAD_LAYOUT
350
1A
  3
ACAD_MLINESTYLE
350
17
  3
ACAD_PLOTSETTINGS
350
19
  3
ACAD_PLOTSTYLENAME
350
E
  3
ACAD_SCALELIST
350
47
  0
DICTIONARY
  5
D
102
{ACAD_REACTORS
330
C
102
}
330
C
100
AcDbDictionary
281
     1
  0
DICTIONARY
  5
1A
102
{ACAD_REACTORS
330
C
102
}
330
C
100
AcDbDictionary
281
     1
  3
Layout1
350
1E
  3
Layout2
350
26
  3
Model
350
22
  0
DICTIONARY
  5
17
102
{ACAD_REACTORS
330
C
102
}
330
C
100
AcDbDictionary
281
     1
  3
Standard
350
18
  0
DICTIONARY
  5
19
102
{ACAD_REACTORS
330
C
102
}
330
C
100
AcDbDictionary
281
     1
  0
ACDBDICTIONARYWDFLT
  5
E
102
{ACAD_REACTORS
330
C
102
}
330
C
100
AcDbDictionary
281
     1
  3
Normal
350
F
100
AcDbDictionaryWithDefault
340
F
  0
DICTIONARY
  5
47
102
{ACAD_REACTORS
330
C
102
}
330
C
100
AcDbDictionary
281
     1
  3
A0
350
48
  3
A1
350
49
  3
A2
350
4A
  3
A3
350
4B
  3
A4
350
4C
  3
A5
350
4D
  3
A6
350
4E
  3
A7
350
4F
  3
A8
350
50
  3
A9
350
51
  3
B0
350
52
  3
B1
350
53
  3
B2
350
54
  3
B3
350
55
  3
B4
350
56
  3
B5
350
57
  3
B6
350
58
  3
B7
350
59
  3
B8
350
5A
  3
B9
350
5B
  3
C0
350
5C
  3
C1
350
5D
  3
C2
350
5E
  3
C3
350
5F
  3
C4
350
60
  3
C5
350
61
  3
C6
350
62
  3
C7
350
63
  3
C8
350
64
  3
C9
350
65
  3
D0
350
66
  3
D1
350
67
  3
D2
350
68
  0
LAYOUT
  5
1E
102
{ACAD_REACTORS
330
1A
102
}
330
1A
100
AcDbPlotSettings
  1

  2
none_device
  4

  6

 40
0.0
 41
0.0
 42
0.0
 43
0.0
 44
0.0
 45
0.0
 46
0.0
 47
0.0
 48
0.0
 49
0.0
140
0.0
141
0.0
142
1.0
143
1.0
 70
   688
 72
     1
 73
     0
 74
     5
  7

 75
    16
147
1.0
148
0.0
149
0.0
100
AcDbLayout
  1
Layout1
 70
     1
 71
     1
 10
0.0
 20
0.0
 11
420.0
 21
297.0
 12
0.0
 22
0.0
 32
0.0
 14
1.0000000000E+20
 24
1.0000000000E+20
 34
1.0000000000E+20
 15
-1.0000000000E+20
 25
-1.0000000000E+20
 35
-1.0000000000E+20
146
0.0
 13
0.0
 23
0.0
 33
0.0
 16
1.0
 26
0.0
 36
0.0
 17
0.0
 27
1.0
 37
0.0
 76
     0
330
1B
  0
LAYOUT
  5
26
102
{ACAD_REACTORS
330
1A
102
}
330
1A
100
AcDbPlotSettings
  1

  2
none_device
  4

  6

 40
0.0
 41
0.0
 42
0.0
 43
0.0
 44
0.0
 45
0.0
 46
0.0
 47
0.0
 48
0.0
 49
0.0
140
0.0
141
0.0
142
1.0
143
1.0
 70
   688
 72
     1
 73
     0
 74
     5
  7

 75
    16
147
1.0
148
0.0
149
0.0
100
AcDbLayout
  1
Layout2
 70
     1
 71
     2
 10
0.0
 20
0.0
 11
0.0
 21
0.0
 12
0.0
 22
0.0
 32
0.0
 14
0.0
 24
0.0
 34
0.0
 15
0.0
 25
0.0
 35
0.0
146
0.0
 13
0.0
 23
0.0
 33
0.0
 16
1.0
 26
0.0
 36
0.0
 17
0.0
 27
1.0
 37
0.0
 76
     0
330
23
  0
LAYOUT
  5
22
102
{ACAD_REACTORS
330
1A
102
}
330
1A
100
AcDbPlotSettings
  1

  2
none_device
  4
Letter_(8.50_x_11.00_Inches)
  6

 40
6.35
 41
6.35
 42
6.35000508
 43
6.35000508
 44
215.9
 45
279.4
 46
0.0
 47
0.0
 48
0.0
 49
0.0
140
0.0
141
0.0
142
1.0
143
1.0
 70
  1712
 72
     1
 73
     0
 74
     0
  7

 75
     0
147
1.0
148
0.0
149
0.0
100
AcDbLayout
  1
Model
 70
     1
 71
     0
 10
0.0
 20
0.0
 11
279.4
 21
215.9
 12
0.0
 22
0.0
 32
0.0
 14
0.0
 24
0.0
 34
0.0
 15
279.4
 25
215.9
 35
0.0
146
0.0
 13
0.0
 23
0.0
 33
0.0
 16
1.0
 26
0.0
 36
0.0
 17
0.0
 27
1.0
 37
0.0
 76
     0
330
1F
331
29
  0
MLINESTYLE
  5
18
102
{ACAD_REACTORS
330
17
102
}
330
17
100
AcDbMlineStyle
  2
Standard
 70
     0
  3

 62
   256
 51
90.0
 52
90.0
 71
     2
 49
0.5
 62
   256
  6
BYLAYER
 49
-0.5
 62
   256
  6
BYLAYER
  0
ACDBPLACEHOLDER
  5
F
102
{ACAD_REACTORS
330
E
102
}
330
E
  0
SCALE
  5
48
102
{ACAD_REACTORS
330
47
102
}
330
47
100
AcDbScale
 70
     0
300
1:1
140
1.0
141
1.0
290
     1
  0
SCALE
  5
49
102
{ACAD_REACTORS
330
47
102
}
330
47
100
AcDbScale
 70
     0
300
1:2
140
1.0
141
2.0
290
     0
  0
SCALE
  5
4A
102
{ACAD_REACTORS
330
47
102
}
330
47
100
AcDbScale
 70
     0
300
1:4
140
1.0
141
4.0
290
     0
  0
SCALE
  5
4B
102
{ACAD_REACTORS
330
47
102
}
330
47
100
AcDbScale
 70
     0
300
1:5
140
1.0
141
5.0
290
     0
  0
SCALE
  5
4C
102
{ACAD_REACTORS
330
47
102
}
330
47
100
AcDbScale
 70
     0
300
1:8
140
1.0
141
8.0
290
     0
  0
SCALE
  5
4D
102
{ACAD_REACTORS
330
47
102
}
330
47
100
AcDbScale
 70
     0
300
1:10
140
1.0
141
10.0
290
     0
  0
SCALE
  5
4E
102
{ACAD_REACTORS
330
47
102
}
330
47
100
AcDbScale
 70
     0
300
1:16
140
1.0
141
16.0
290
     0
  0
SCALE
  5
4F
102
{ACAD_REACTORS
330
47
102
}
330
47
100
AcDbScale
 70
     0
300
1:20
140
1.0
141
20.0
290
     0
  0
SCALE
  5
50
102
{ACAD_REACTORS
330
47
102
}
330
47
100
AcDbScale
 70
     0
300
1:30
140
1.0
141
30.0
290
     0
  0
SCALE
  5
51
102
{ACAD_REACTORS
330
47
102
}
330
47
100
AcDbScale
 70
     0
300
1:40
140
1.0
141
40.0
290
     0
  0
SCALE
  5
52
102
{ACAD_REACTORS
330
47
102
}
330
47
100
AcDbScale
 70
     0
300
1:50
140
1.0
141
50.0
290
     0
  0
SCALE
  5
53
102
{ACAD_REACTORS
330
47
102
}
330
47
100
AcDbScale
 70
     0
300
1:100
140
1.0
141
100.0
290
     0
  0
SCALE
  5
54
102
{ACAD_REACTORS
330
47
102
}
330
47
100
AcDbScale
 70
     0
300
2:1
140
2.0
141
1.0
290
     0
  0
SCALE
  5
55
102
{ACAD_REACTORS
330
47
102
}
330
47
100
AcDbScale
 70
     0
300
4:1
140
4.0
141
1.0
290
     0
  0
SCALE
  5
56
102
{ACAD_REACTORS
330
47
102
}
330
47
100
AcDbScale
 70
     0
300
8:1
140
8.0
141
1.0
290
     0
  0
SCALE
  5
57
102
{ACAD_REACTORS
330
47
102
}
330
47
100
AcDbScale
 70
     0
300
10:1
140
10.0
141
1.0
290
     0
  0
SCALE
  5
58
102
{ACAD_REACTORS
330
47
102
}
330
47
100
AcDbScale
 70
     0
300
100:1
140
100.0
141
1.0
290
     0
  0
SCALE
  5
59
102
{ACAD_REACTORS
330
47
102
}
330
47
100
AcDbScale
 70
     0
300
1/128" = 1'-0"
140
0.0078125
141
12.0
290
     0
  0
SCALE
  5
5A
102
{ACAD_REACTORS
330
47
102
}
330
47
100
AcDbScale
 70
     0
300
1/64" = 1'-0"
140
0.015625
141
12.0
290
     0
  0
SCALE
  5
5B
102
{ACAD_REACTORS
330
47
102
}
330
47
100
AcDbScale
 70
     0
300
1/32" = 1'-0"
140
0.03125
141
12.0
290
     0
  0
SCALE
  5
5C
102
{ACAD_REACTORS
330
47
102
}
330
47
100
AcDbScale
 70
     0
300
1/16" = 1'-0"
140
0.0625
141
12.0
290
     0
  0
SCALE
  5
5D
102
{ACAD_REACTORS
330
47
102
}
330
47
100
AcDbScale
 70
     0
300
3/32" = 1'-0"
140
0.09375
141
12.0
290
     0
  0
SCALE
  5
5E
102
{ACAD_REACTORS
330
47
102
}
330
47
100
AcDbScale
 70
     0
300
1/8" = 1'-0"
140
0.125
141
12.0
290
     0
  0
SCALE
  5
5F
102
{ACAD_REACTORS
330
47
102
}
330
47
100
AcDbScale
 70
     0
300
3/16" = 1'-0"
140
0.1875
141
12.0
290
     0
  0
SCALE
  5
60
102
{ACAD_REACTORS
330
47
102
}
330
47
100
AcDbScale
 70
     0
300
1/4" = 1'-0"
140
0.25
141
12.0
290
     0
  0
SCALE
  5
61
102
{ACAD_REACTORS
330
47
102
}
330
47
100
AcDbScale
 70
     0
300
3/8" = 1'-0"
140
0.375
141
12.0
290
     0
  0
SCALE
  5
62
102
{ACAD_REACTORS
330
47
102
}
330
47
100
AcDbScale
 70
     0
300
1/2" = 1'-0"
140
0.5
141
12.0
290
     0
  0
SCALE
  5
63
102
{ACAD_REACTORS
330
47
102
}
330
47
100
AcDbScale
 70
     0
300
3/4" = 1'-0"
140
0.75
141
12.0
290
     0
  0
SCALE
  5
64
102
{ACAD_REACTORS
330
47
102
}
330
47
100
AcDbScale
 70
     0
300
1" = 1'-0"
140
1.0
141
12.0
290
     0
  0
SCALE
  5
65
102
{ACAD_REACTORS
330
47
102
}
330
47
100
AcDbScale
 70
     0
300
1-1/2" = 1'-0"
140
1.5
141
12.0
290
     0
  0
SCALE
  5
66
102
{ACAD_REACTORS
330
47
102
}
330
47
100
AcDbScale
 70
     0
300
3" = 1'-0"
140
3.0
141
12.0
290
     0
  0
SCALE
  5
67
102
{ACAD_REACTORS
330
47
102
}
330
47
100
AcDbScale
 70
     0
300
6" = 1'-0"
140
6.0
141
12.0
290
     0
  0
SCALE
  5
68
102
{ACAD_REACTORS
330
47
102
}
330
47
100
AcDbScale
 70
     0
300
1'-0" = 1'-0"
140
12.0
141
12.0
290
     0
  0
ENDSEC
  0
EOF
